Saturday, 14 January 2012

Estrella-Stay



Estrella-Stay 


 Dmaj7 - x5767x                                                
 C#m7  - 9x999x                                              
 Cm7   - 8x888x                                              
 Bm7   - 7x777x                                              
  A    - 5776xx    


[INTRO]

Dmaj7 - C#m7 - Cm7/Bm - A

Kord Akhir, Amaj, bunyi cm neh:

e|-------------------|
B|-------------------|
G|-666-7777-999-7777-|
D|-777-7777-777-7777-|
A|-777-7777-777-7777-|
E|-555-5555-555-5555-|


[VERSE 1]

Dmaj7                   C#m7       
Sound straight from the twilight,
       Cm7/Bm7
Has me up all night,
              A
I can't fall asleep 'cause I keep thinking of you,
    Dmaj7   C#m7           Cm7/Bm7            A      
And I saw a shadow outside my window and it's you.


[CHORUS]

       Dmaj7
All my sorrows flew away,
           C#m7
Hush, keep quiet, hear me say,
        Bm7
I don't ever want you to go,
       A
Please stay.

         Dmaj7
With the moonlight dancing free,
            C#m7
And there's no one but you and me,
           Bm7
There's no reason to go astray,
       A
Please stay.


[RIFF]

Dmaj7
Making up a story,
         C#m7
It's the way you're looking at me,
       Bm7        
If you think that this is funny,
          A
it's just you.

Try and think about it,
If you're heart is closed don't lock,
Keep your keys back in your pocket,
Think this through.


[SOLO]

(Use same chord as above)

e|---------------------(Ten's)------------------------|
B|-----------7777-9999-10101010-9-7-------------------|
G|-7777-9999------------------------9-99--------------|
D|----------------------------------------------------|
A|----------------------------------------------------|
E|----------------------------------------------------|

e|----------------------------------------------------|
B|----------------------------------------------------|
G|-777-9-77-9-7-7-9-777-9-6-7-66-7-66-7-66-6-7-6------|
D|----------------------------------------------------|
A|----------------------------------------------------|
E|----------------------------------------------------|

e|----------------------------------------------------|
B|-----------7777-9999-9-10-9-10-9-10-9-10-12-10-9-99-|
G|-7777-9999------------------------------------------|
D|----------------------------------------------------|
A|----------------------------------------------------|
E|----------------------------------------------------|

e|----------------------------------------------------|
B|----------------------------------------------------|
G|-777-9-77-9-7-7-9-777-9-6-7-66-7-66-7-66-6-7-6------|
D|----------------------------------------------------|
A|----------------------------------------------------|
E|----------------------------------------------------|


Repeat [CHORUS]


[OUTRO]

       Dmaj7
Please stay
     C#m7
Just stay with me
           Bm7
and I will take you to Foreverland
     A
Just stay

e|----------------------|
B|----------------------|
G|-666-7777-999-7777--6-|
D|-777-7777-777-7777--7-|
A|-777-7777-777-7777--7-|
E|-555-5555-555-5555--5-|

-End-

No comments:

Post a Comment